finger   Tabs By VmP123   finger

<<
Viikate - Aimon Virsi
 Selvitti: VmP123

INTRO:
  C               C       Am
 |--------0-3-0---------0-5-------|
 |1---1-3-------------------------|
 |--0-----------------------------|
 |--------------------------------|
 |--------------------------(2x)--|
 |--------------------------------|
 
VERSE:
           G              Am
 Meitä oli kaksi: Aimo ja minä.
          F               Am
 koulussa istuttiin vierekkäin
           G              Am
 Autokuski Onni oli aimon isä.
          F          Am
 Onni vei Aimoa eteenpäin.
         G                Am
 Aimo ei osannut koulussa mitään,
              F                 Am
 mutta pyörää ajoi vaikka väärinpäin.
          G                 Am
 Tapahtui tunnilla sitä tai tätä
          F          Am
 onni vei aimoa eteenpäin.


PRE-CHORUS:
          F
 Opettaja aamuisin vedätti virren,
         Am
 aurinko paistoi harmooniin.
          F
 Aimo sai ylleen ilon pilven,
          Am
 etupenkistäkin häntä seurattiin ja laulettiin:


CHORUS:
  Am              F               Am              F
 |--------0-3-0---1-101-101-101-10--------0-3-0---------------887-|
 |1---1-3-------------------------1---1-3---------6-656-656-65----|
 |--2-------------------------------2-----------------------------|
 |----------------------------------------------------------------|
 |----------------------------------------------------------------|
 |----------------------------------------------------------------|
  G               E               E
 |--------------------------------0---------------|
 |88868-------------------------0-----------------|
 |------7---------4-----2-1-----------------------|
 |------------------------------------------------|
 |------------------------------------------------|
 |------------------------------------------------|

INTRO
VERSE
PRE-CHORUS
CHORUS x2
INTRO

OUTRO:
  C           C
 |--------0-3-8--------------|
 |1---1-3-----8--------------|
 |--0------------------------|
 |---------------------------|
 |---------------------------|
 |---------------------------|

Valid XHTML 1.0!Valid CSS!