finger   Tabs By VmP123   finger

<<
Terveet Kädet - Musta Jumala
 Selvitti: VmP123

INTRO:
 |----------------|
 |-----------(4x)-|
 |----------------|
 |7---------------|
 |7---------------|
 |5---------------|
 |
 |----------------|
 |----------------|
 |------------3-5-|
 |5-5-5-5-5-5-----|

VERSE:
 |-----------(4x)-|
 |----------------|
 |------------5-7-|
 |7-----------5-7-|
 |7-----------3-5-|
 |5---------------|

CHORUS:
 |--------------------------------|
 |---------------------------(4x)-|
 |--------------------------------|
 |3-------5-------7-------7-------|
 |3-------5-------7-------7-------|
 |1-------3-------5-------5-------|

INTRO
VERSE
CHORUS

INTERLUDE:
 |----------------|
 |-----------(3x)-|
 |----------------|
 |x-x-x-x-x-x-x-x-|
 |x-x-x-x-x-x-x-x-|
 |x-x-x-x-x-x-x-x-|

CHORUS

Valid XHTML 1.0!Valid CSS!