finger   Tabs By VmP123   finger

<<
Shitter Limited - Synti Voittaa
 Selvitti: VmP123

RIFF1:
 |--------------------------------|
 |--------------------------------|
 |--------------------------------|
 |--------7-------6---------------|
 |9-------5-------4-------7-------|
 |7-----------------------5-------|
 |                                |
 |--------------------------------|
 |--------------------------------|
 |7-7-7-7-7-7-7-7-7-7-7-7-7-7-7-7-|
 |9-9-9-9-9-9-9-9-9-9-9-9-9-9-9-9-|
 |--------------------------------|
 |--------------------------------|

RIFF2 / VERSE:
 |--------------------------------|
 |--------------------(VERSE: 4x)-|
 |--------------------------------|
 |------------7-------6-----------|
 |----9---5-5-5---4-4-4-------7---|
 |7-7-7-------------------5-5-5---|
  . .     . .     . .     . .

CHORUS:
 |--------------------------------|
 |---------------------------(2x)-|
 |--------------------------------|
 |9-9-9-9-9-9-799-B-B-B-B-B-------|
 |7-7-7-7-7-7-577-9-9-9-9-9-------|
 |--------------------------------|

OUTRO:
  H5      D5      C#5     A5
 |--------------------------------|-----
 |---------------------------(4x)-|-----
 |------------------------7---6---|-----
 |--------5-4-5-4-----------------|9----
 |7-------------------------------|7----

RAKENNE:
 RIFF1 x2
 RIFF2 x2
 VERSE
 CHORUS
 RIFF1 x2
 RIFF2 x2
 VERSE
 CHORUS
 RIFF1 x2
 RIFF2 x2
 VERSE
 CHORUS
 RIFF1 x2
 RIFF2 x2
 VERSE
 CHORUS
 OUTRO

Valid XHTML 1.0!Valid CSS!