finger   Tabs By VmP123   finger

<<
Shitter Limited - Mauno Koivisto
 Selvitti: VmP123

RIFF1/VERSE:
 |--------------------------------|
 |--------------------(VERSE: 4x)-|
 |--------------------------------|
 |----------------7---------------|
 |9---------------5-----7---7-7---|
 |7---7-7-7-7-7-7-------5---5-5---|
      . . . . . .

CHORUS:
 |--------------------------------|--------------------------------|
 |---------------------------(3x)-|--------------------------------|
 |--------------------------------|--------------------------------|
 |--------7---7-9---9-B-9-9-9-B-9-|7-7-9-7-7-7-9-7-7-7-9-7-7-7-9-7-|
 |9---9---5---5-7---7-7-7-7-7-7-7-|5-5-5-5-5-5-5-5-5-5-5-5-5-5-5-5-|
 |7---7---------------------------|--------------------------------|

RIFF2:
 |----------------------------------------------------------------|
 |----------------------------------------------------------------|
 |----------------------------------------------------------------|
 |----------------------------------------------------------------|
 |9---------------------------------------------------------------|
 |7---7-7-7-7-7-7-7-7-7-7-7-7-7-7-7-7-7-7-7-7-7-7-7-7-7-7-7-7-7-7-|
      . . . . . . . . . . . . . . . . . . . . . . . . . . . . . .

RIFF3:
 |----------------|----------------|----------------|--------------------------------|
 |-----------(4x)-|-----------(2x)-|-----------(2x)-|8~~~~~~~~~~~~~~~~~~~~~~~~~~~~~~~|
 |9---9---7---7---|A---A---8---8---|9---9---7---7---|7-------------------------------|
 |9-------7-------|A-------8-------|9-------7-------|5-------------------------------|
 |7-------5-------|8-------6-------|7-------5-------|--------------------------------|
 |----------------|----------------|----------------|--------------------------------|

OUTRO:
 |----------------|----------------|
 |-----------(3x)-|----------------|
 |----------------|----------------|
 |9-----7---------|9---------------|
 |7-----5---------|7---------------|

RAKENNE:
 RIFF1 x2
 VERSE
 CHORUS
 RIFF1 x2
 VERSE
 CHORUS
 RIFF1 x2
 VERSE
 CHORUS
 RIFF2
 RIFF3
 RIFF1 x2
 VERSE
 CHORUS x2

Valid XHTML 1.0!Valid CSS!