finger   Tabs By VmP123   finger

<<
Ruoska - Viiden Tähden Helvetti (Dropped C)
 Selvitti: VmP123

RIFF1:
 |----------------|----------------|
 |-----------(3x)-|----------------|
 |----------------|----------------|
 |----------------|----------------|
 |----------------|----------------|
 |6005006005006050|6005000000-00-0-|
                           .. .. .

RIFF1b:
 |----------------|----------------|
 |----------------|----------------|
 |----------------|----------------|
 |----------------|----------------|
 |----------------|----------------|
 |6005006005006050|6005000000-00-0-|
                           .. .. .

RIFF1c:
 |----------------|
 |----------------|
 |----------------|
 |----------------|
 |----------------|
 |6005006005006050|

VERSE:
 |----------------|----------------|----------------|----------------|
 |-----------(4x)-|-----------(2x)-|----------------|----------------|
 |----------------|----------------|----------------|----------------|
 |00000x----------|000x----000x----|00x-00x-00x-00x-|xxxxxxxxxxxxxxxx|
 |00000x----------|000x----000x----|00x-00x-00x-00x-|xxxxxxxxxxxxxxxx|
 |00000x----------|000x----000x----|00x-00x-00x-00x-|xxxxxxxxxxxxxxxx|

CHORUS:
 |----------------------------------------------------------------|
 |-----------------------------------------------------------(2x)-|
 |----------------------------------------------------------------|
 |8-8-8-8-8-8-8-8-5-5-5-5-5-5-5-5-0-0-0-0-0-0-0-0-3-3-3-3-3-3-3-3-|
 |8-8-8-8-8-8-8-8-5-5-5-5-5-5-5-5-0-0-0-0-0-0-0-0-3-3-3-3-3-3-3-3-|
 |8-8-8-8-8-8-8-8-5-5-5-5-5-5-5-5-0-0-0-0-0-0-0-0-3-3-3-3-3-3-3-3-|

CHORUS(b):
 |------------------------------------------------|
 |------------------------------------------------|
 |------------------------------------------------|
 |8-8-8-8-8-8-8-8-5-5-5-5-5-5-5-5-5-5-5-5-5-5-5-5-|
 |8-8-8-8-8-8-8-8-5-5-5-5-5-5-5-5-5-5-5-5-5-5-5-5-|
 |8-8-8-8-8-8-8-8-5-5-5-5-5-5-5-5-5-5-5-5-5-5-5-5-|

RAKENNE:
 RIFF1
 RIFF1b  x4
 VERSE
 CHORUS
 CHORUS(b)
 RIFF1b  x4
 VERSE
 CHORUS
 CHORUS  x2
 CHORUS(b)
 RIFF1c  x4  ("tahdon...")
 RIFF1c  x4  ("karvaasta kalkista...")
 CHORUS  x4
 CHORUS(b)
 RIFF1b  x4
 C5



Valid XHTML 1.0!Valid CSS!