finger   Tabs By VmP123   finger

<<
Ruoska - Taivas Palaa (Dropped C)
 Selvitti: VmP123
 
RIFF1:
 |--------------------------------|--------------------------------|
 |--------------------------------|--------------------------------|
 |--------------------------------|--------------------------------|
 |--------------------------------|--------------------------------|
 |--------------------------------|--------------------------------|
 |1-0-0-1-0-0-1-0-0-1-0-0-3-0-6-0-|1-0-0-1-0-0-1-0-0-1-0-0-6-5-3-5-|

RIFF1b:
 |--------------------------------|--------------------------------|
 |--------------------------------|--------------------------------|
 |--------------------------------|--------------------------------|
 |--------------------------------|--------------------------------|
 |--------------------------------|--------------------------------|
 |1-0-0-1-0-0-1-0-0-1-0-0-3-0-6-0-|1-0-0-1-0-0-1-0-x---------------|

RIFF2:
 |----------------|
 |----------------|
 |----------------|
 |----------------|
 |----------------|
 |0-0-0-----------|
  . . .
 
RIFF3:
 |--------------------------------|
 |--------------------------------|
 |--------------------------------|
 |5-5-5-5-5-5-5-5-5-5-5-5-6-x-6-x-|
 |5-5-5-5-5-5-5-5-5-5-5-5-6-x-6-x-|
 |5-5-5-5-5-5-5-5-5-5-5-5-6-x-6-x-|

RIFF4:
 |----------------------------------------------------------------|
 |----------------------------------------------------------------|
 |----------------------------------------------------------------|
 |5-5-5-5-5-5-5-5-8-8-8-8-8-8-8-8-C-C-C-C-C-C-C-C-C-C-C-C-C-D-C-A-|
 |5-5-5-5-5-5-5-5-8-8-8-8-8-8-8-8-C-C-C-C-C-C-C-C-C-C-C-C-C-D-C-A-|
 |5-5-5-5-5-5-5-5-8-8-8-8-8-8-8-8-C-C-C-C-C-C-C-C-C-C-C-C-C-D-C-A-|

RIFF4b:
 |----------------------------------------------------------------|
 |----------------------------------------------------------------|
 |----------------------------------------------------------------|
 |5-5-5-5-5-5-5-5-8-8-8-8-8-8-8-8-C-C-C-C-C-C-C-C-C-C-C-C-C-C-C-C-|
 |5-5-5-5-5-5-5-5-8-8-8-8-8-8-8-8-C-C-C-C-C-C-C-C-C-C-C-C-C-C-C-C-|
 |5-5-5-5-5-5-5-5-8-8-8-8-8-8-8-8-C-C-C-C-C-C-C-C-C-C-C-C-C-C-C-C-|

RAKENNE:
 RIFF1 x2
 RIFF1 x2
 synat       ("taivas teräksen harmaa...")
 RIFF2 x8    ("auttakaa...")
 RIFF3       ("ei missään piilopaikkaa")
 RIFF1 x2    ("ha! ha! ha! taivas palaa...")
 RIFF4 x3  \ ("polttaa polttaa...")
 RIFF4b    /
 RIFF1 x2    ("ha! ha! saa taivas palaa...")
 synat       ("pukeiduttiin juhlavasti...")
 RIFF2 x8    ("auttakaa...")
 RIFF3       ("ei missään piilopaikkaa")
 RIFF1 x2    ("ha! ha! ha! taivas palaa...")
 RIFF4 x3  \ ("polttaa polttaa...")
 RIFF4b    /
 RIFF1     \ ("ha! ha! ha! ha!")
 RIFF1b    /
 RIFF4 x3  \ ("polttaa polttaa...")
 RIFF4b    /
 RIFF1 x4    ("ha! ha! saa taivas palaa...")
 C5

Valid XHTML 1.0!Valid CSS!