finger   Tabs By VmP123   finger

<<
Ruoska - Pure Minua (Dropped C)
 Selvitti: VmP123

RIFF1:
 |--------|--------|--------|--------|
 |---(4x)-|---(4x)-|---(2x)-|---(2x)-|
 |--------|--------|--------|--------|
 |5-5-5-5-|8-8-8-8-|A-A-A-A-|3-3-3-3-|
 |5-5-5-5-|8-8-8-8-|A-A-A-A-|3-3-3-3-|
 |5-5-5-5-|8-8-8-8-|A-A-A-A-|3-3-3-3-|

RIFF1b:
 |--------|
 |---(4x)-|
 |--------|
 |5-5-5-5-|
 |5-5-5-5-|
 |5-5-5-5-|
 
RIFF2:
 |--------|
 |---(4x)-|
 |--------|
 |--------|
 |5-5-5-5-|
 |5-5-5-5-|
  . . . .
  
RIFF3:
 |--------------------------------|
 |--------------------------------|
 |--------------------------------|
 |1-1-1-1-1-1-1-1-0-x-------------|
 |1-1-1-1-1-1-1-1-0-x-------------|
 |1-1-1-1-1-1-1-1-0-x-------------|

RAKENNE:
 RIFF1
 RIFF1b
 RIFF1
 RIFF2  x4
 synat     ("käy kiinni...")
 RIFF2  x4 ("pure minua...")
 RIFF3
 RIFF1     \
 RIFF1b     \ ("minä olen..."
 RIFF1      /
 RIFF2  x4
 synat     ("pimeässä kuumin sormin...")
 RIFF2  x4 ("pure minua...")
 RIFF3
 RIFF1     \
 RIFF1b     \ ("minä olen..."
 RIFF1      /
 RIFF1b    /
 F5
 synat
 RIFF1 (dempattuna)
 RIFFb (dempattuna)
 RIFF1     \
 RIFF1b     \ ("minä olen..."
 RIFF1      /
 RIFF1b    /
 RIFF1    /
 RIFF1b  /
 RIFF2  x4

Valid XHTML 1.0!Valid CSS!