finger   Tabs By VmP123   finger

<<
Ruoska - Mies Yli Laidan (Dropped C)
 Selvitti: VmP123
 
RIFF1:
 |----------------|----------------|----------------|
 |-----------(2x)-|----------------|----------------|
 |----------------|----------------|----------------|
 |----------------|----------------|----------------|
 |0-0-0-0-0-0-0000|3-3-3-3-3-3-3333|5-5-5-5-5-5-5555|
 |0-0-0-0-0-0-0000|3-3-3-3-3-3-3333|5-5-5-5-5-5-5555|
  . . . . . . .... . . . . . . .... . . . . . . ....

RIFF2:
 |----------------|----------------|
 |----------------|-----------(2x)-|
 |----------------|----------------|
 |----------------|----------------|
 |888-888-888-888-|AAA-AAA-AAA-AAA-|
 |888-888-888-888-|AAA-AAA-AAA-AAA-|
  ..  ..  ..  ..   ..  ..  ..  ..
  
RIFF3:
 |----------------|
 |-----------(2x)-|
 |----------------|
 |----------------|
 |0-0---0---0---0-|
 |0-0---0---0---0-|
  . .   .   .   .
 
RIFF4:
 |--------------------------------|
 |--------------------------------|
 |--------------------------------|
 |8---------------8---------------|
 |8---------------8---------------|
 |8---------------8---------------|
 
RIFF5:
 |--------------------------------|
 |--------------------------------|
 |--------------------------------|
 |7---------------7---5---3---2---|
 |7---------------7---5---3---2---|
 |7---------------7---5---3---2---|

RIFF6:
 |--------------------------------|
 |--------------------------------|
 |--------------------------------|
 |0---------------0---------------|
 |0---------------0---------------|
 |0---------------0---------------|

RIFF6b:
 |--------------------------------|
 |--------------------------------|
 |--------------------------------|
 |0---------------A---------------|
 |0---------------A---------------|
 |0---------------A---------------|

RIFF7:
 |----------------|----------------|----------------|
 |-----------(2x)-|----------------|----------------|
 |----------------|----------------|----------------|
 |--0-0-0-0-0-0-1-|--0-0-0-0-0-0-0-|5---3---2---5---|
 |--0-0-0-0-0-0-1-|--0-0-0-0-0-0-0-|5---3---2---3---|
 |--0-0-0-0-0-0-1-|--0-0-0-0-0-0-0-|5---3---2-------|

RAKENNE:
 RIFF1   x2
 RIFF2
 RIFF3   x2
 synat \ x2   \
 RIFF3 /      |
 RIFF4        |
 RIFF3        | x2
 RIFF4        |
 RIFF5        |
 RIFF1   x2   |
 RIFF2        /
 RIFF4
 RIFF6
 RIFF4
 RIFF6b
 RIFF4
 RIFF6
 RIFF4
 RIFF5
 RIFF1   x4
 RIFF2
 RIFF7   x4
 C5

Valid XHTML 1.0!Valid CSS!