finger   Tabs By VmP123   finger

<<
Ruoska - Koti
 Selvitti: VmP123
 (Dropped D)

Riffi1:
 |--------------------------------|
 |--------------------------------|
 |--------------------------------|
 |0-0-1-0-0-3-0-0-1-0-0-3-0-0-X-X-|
 |0-0-1-0-0-3-0-0-1-0-0-3-0-0-X-X-|
 |0-0-1-0-0-3-0-0-1-0-0-3-0-0-X-X-|

Riffi1:
 |--------------------------------|
 |--------------------------------|
 |--------------------------------|
 |1-0---1-0---1-0---1-0---1---2---|
 |1-0---1-0---1-0---1-0---1---2---|
 |1-0---1-0---1-0---1-0---1---2---|


VERSE:
 | D5 | D#5 | D5 | D5 |  x4

CHORUS:
 | F5  | F5  | G5 | G5 |
 | D#5 | D#5 | F5 | F5 |
 | F5  | F5  | G5 | G5 |
 | A#5 | A#5 | F5 | F5 |


Riffi1 (vain kitara) x2
Riffi1 x4
VERSE
Riffi1 x4
VERSE
Riffi2
CHORUS
Riffi1 x4
VERSE
Riffi2
CHORUS x2
Riffi1 x4

Valid XHTML 1.0!Valid CSS!