finger   Tabs By VmP123   finger

<<
Ruoska - Alasin (Dropped C)
 Selvitti: VmP123

RIFF1:
 |--------|--------|--------|--------|
 |---(3x)-|--------|---(3x)-|--------|
 |--------|--------|--------|--------|
 |--------|--------|--------|--------|
 |--------|--------|--------|--------|
 |355-5-5-|33556655|355-5-5-|3-5-6---|
  ... . .  ........ ... . .

RIFF2:
 |--------|--------|--------|
 |---(2x)-|---(2x)-|---(4x)-|
 |--------|--------|--------|
 |--------|--------|--------|
 |--------|--------|--------|
 |666-6-6-|333-3-3-|555-5-5-|
  ... . .  ... . .  ... . .

RIFF3:
 |--------------------------------|
 |--------------------------------|
 |--------------------------------|
 |0---------------8---7---A---7---|
 |0---------------8---7---A---7---|
 |0---------------8---7---A---7---|


RIFF4:
 |----------------------------------------------------------------|
 |----------------------------------------------------------------|
 |----------------------------------------------------------------|
 |5-5-5-5-5-5-5-5-8-8-8-8-8-8-8-8-A-A-A-A-A-A-A-A-A-A-A-A-0-0-0-0-|
 |5-5-5-5-5-5-5-5-8-8-8-8-8-8-8-8-A-A-A-A-A-A-A-A-A-A-A-A-0-0-0-0-|
 |5-5-5-5-5-5-5-5-8-8-8-8-8-8-8-8-A-A-A-A-A-A-A-A-A-A-A-A-0-0-0-0-|

RIFF5:                 RIFF5b:
 |--------|--------|    |--------|----------------|
 |---(3x)-|--------|    |---(2x)-|----------------|
 |--------|--------|    |--------|----------------|
 |--------|--------|    |--------|8---7---A---7---|
 |--------|--------|    |--------|8---7---A---7---|
 |100-0-0-|11001100|    |100-0-0-|8---7---A---7---|
  ... . .  ........      ... . .

RIFF6:
 |--------|--------|--------|--------------------|
 |----(3x)|--------|---(2x)-|--------------------|
 |--------|--------|--------|--------------------|
 |--------|--------|--------|8---7---A---7---5---|
 |--------|--------|--------|8---7---A---7---5---|
 |355-5-5-|33556655|355-5-5-|8---7---A---7---5---|
  ... . .  ........ ... . .


RAKENNE:
 synat
 RIFF1 x2
 synat    ("rukoilepa taivaan...")
 RIFF2 x2 ("piemeästä hehkuvan...")
 RIFF3
 RIFF4 x4 ("sydän parka rinnassaan...")
 RIFF1 x2
 synat    ("koitapa kyntää...")
 RIFF2 x2 ("koitapa kyntää...")
 RIFF3
 RIFF4 x4 ("sydän parka rinnassaan...")
 F5
 RIFF5 x7
 RIFF5b
 RIFF4 x4 ("sydän parka rinnassaan...")
 RIFF6
 synat

Valid XHTML 1.0!Valid CSS!