finger   Tabs By VmP123   finger

<<
Pojat & Erkki Hipponen - Korkeajšnnitys
 Selvitti: VmP123
 
INTRO/VERSE:
 |----------------|
 |-----------(2X)-| <- INTRO
 |-----------(4X)-| <- VERSE
 |----7-------9---|
 |7---5---5---7---|
 |5-------3-------|


CHORUS:
 |----------------|
 |-----------(4X)-|
 |----------------|
 |A---------------|
 |8---A---7---5---|
 |----8---5---3---|

BRIDGE:
 |----------------|
 |----------------|
 |----------------|
 |--------9---5---|
 |7-------7----757|
 |5---------------|

INTRO
VERSE
CHORUS
BRIDGE
VERSE
CHORUS
INTRO
CHORUS
LOPETUS: A5

Valid XHTML 1.0!Valid CSS!