finger   Tabs By VmP123   finger

<<
Metuja - Ruusuja Raunioilla
 Selvitti: VmP123

INTRO:
 |--------------------------------|--------------------------------|
 |---------------------------(3x)-|--------------------------------|
 |----9-9-8-8---------------------|----9-9-8-8-9-9-8-8-------------|
 |------------9-9-8-8-7-7-5-5-----|--------------------9-9-8-7-----|
 |----------------------------5-7-|----------------------------5-7-|
 |--------------------------------|--------------------------------| x2

VERSE:
 |--------------------------------|
 |---------------------------(2x)-|
 |--------------------------------|
 |9---------------5------7--------|
 |7-------5-------3------5--------|
 |--------3-----------------------|

CHORUS:
 |--------------------------------|
 |---------------------------(4x)-|
 |--------------------------------|
 |5---------------7-------9-------|
 |3-------5-------5-------7-------|
 |--------3-----------------------|

INTRO
VERSE
CHORUS
INTRO
VERSE
CHORUS
INTRO
LOPETUS: E5

Valid XHTML 1.0!Valid CSS!