finger   Tabs By VmP123   finger

<<
Maukka Perusjätkä - Ennen Kolmatta Maailmansotaa
 Selvitti: VmP123
 
RIFFI1:
 |--------------------------------|
 |---------------------------(2x)-|
 |--------------------------------|
 |----------------6---------------|
 |9-------6-------4-------4-------|
 |7-------4---------------2-------|

RIFFI2:
 |--------------------------------|
 |--------------------------------|
 |-------(2T)------------(2T)-----|
 |(2T)---7-------(2T)----A--------|
 |9------9-------9-------9--------|
 |7--------------7----------------|
  .      .       .

RIFFI3:
 |----------------------------------------------------------------|
 |----------------------------------------------------------------|
 |--------------------------------------------------------6-------|
 |----------------6---------------8---------------6-------4-------|
 |9-------6-------4-------4-------6-------6-------4---------------|
 |7-------4---------------2---------------4-----------------------|



RAKENNE:
 RIFFI1
 RIFFI2
 RIFFI3 ("kukaan ei oo ketään...")
 RIFFI1 ("nämä yöt, ilon yöt...")
 RIFFI2
 RIFFI3 ("ei hitler loistossaan...")
 RIFFI1 ("nämä yöt, ilon yöt...")
 RIFFI2
 RIFFI1 (sax-soolo)
 RIFFI3 ("me ollaan matkaalla...")
 RIFFI1 ("nämä yöt, ilon yöt...")
 RIFFI2
 RIFFI1 (sax-soolo) (fade out)

Valid XHTML 1.0!Valid CSS!