finger   Tabs By VmP123   finger

<<
Kumikameli - Lemmikki
 Selvitti: VmP123

RIFF1:                                RIFF1b:
 |----------------|----------------|   |----------------|
 |-----------(3x)-|----------------|   |----------------|
 |----------------|----------------|   |----------------|
 |7-7-7-8-7-6-----|7-7-7-8-7-6-----|   |7-7-7-8-7-6-7-\-|
 |5-5-5-6-5-4-8-7-|5-5-5-6-5-4-8-x-|   |5-5-5-6-5-4-5-\-|
 |------------6-5-|------------6-x-|   |----------------|

VERSE(a):
 |----------------|
 |-----------(8x)-|
 |-(jotain kitara-|
 |--vingahteluja)-|
 |----------------|
 |----------------|

RIFF2:                               RIFF2b:
 |--------------------------------|   |--------------------------------|
 |--------------------------------|   |--------------------------------|
 |--------------------------------|   |--------------------------------|
 |5---5---8-8-8-8-7-7-----7-7-----|   |5---5-----------8-8-8-8-8-8-8-8-|
 |3---3---6-6-6-6-5-5-5-x-5-5-5-x-|   |3---3---6-6-6-6-6-6-6-6-6-6-6-6-|
 |--------------------3-x-----3-x-|   |--------4-4-4-4-----------------|

RIFF2c:
 |--------------------------------|
 |--------------------------------|
 |--------------------------------|
 |5---5---------------------------|
 |3---3---6-6-6-6-3-3-3-3-3-3-3-3-|
 |--------4-4-4-4-1-1-1-1-1-1-1-1-|

VERSE(b):
 |----------------|--------------------------------|
 |-----------(6x)-|--------------------------------|
 |----------------|7-7-7-7-7-7-7-7-8-8-8-8-9-9-9-9-|
 |7-7-7-7-7-7-7-7-|5-5-5-5-5-5-5-5-6-6-6-6-7-7-7-7-|
 |5-5-5-5-5-5-5-5-|--------------------------------|
 |----------------|--------------------------------|
  . . . . . . . .  . . . . . . . . . . . . . . . .


RAKENNE:
 RIFF1 x2
 VERSE(a)
 RIFF1 x2
 VERSE(a)
 RIFF2  \
 RIFF2b  \ (CHORUS)
 RIFF2   /
 RIFF2c /
 RIFF1 x2 (SOOLO)
 VERSE(b)
 RIFF2  \
 RIFF2b  \ (CHORUS)
 RIFF2   /  x2
 RIFF2c /
 RIFF1b

Valid XHTML 1.0!Valid CSS!