finger   Tabs By VmP123   finger

<<
Kotiteollisuus - Ukko Perkele (Dropped Db)
 Selvitti: VmP123

RIFF1:
 |----------------------------|
 |----------------------------|
 |----------------------------|
 |----------------------------|
 |3-0-0-5-0-0-6-0-5-0-3-0-5---|
 |3-0-0-5-0-0-6-0-5-0-3-0-5---|

RIFF1(b):
 |--------------------------------|
 |--------------------------------|
 |--------------------------------|
 |--------------------------------|
 |3-0-0-5-0-0-6-0-5-0-3-0-5-0-1---|
 |3-0-0-5-0-0-6-0-5-0-3-0-5-0-1---|


RIFF2:
 |--------------------------------------------------------6-------|
 |5-----------------------3---5---6---------------8---------------| <- 2. kitara
 |----------------------------------------------------------------|
 |7-7-7-7-7-7-7-7-7-7-7-7-7-7-7-7-8-8-8-8-8-8-8-8-5-5-5-5-5-5-5-5-|
 |7-7-7-7-7-7-7-7-7-7-7-7-7-7-7-7-8-8-8-8-8-8-8-8-5-5-5-5-5-5-5-5-| <- 1. kitara
 |7-7-7-7-7-7-7-7-7-7-7-7-7-7-7-7-8-8-8-8-8-8-8-8-5-5-5-5-5-5-5-5-|

 |5---------------------------5---------------------------6-------|
 |------------------------8-------6---------------8---------------|
 |----------------------------------------------------------------|
 |7-7-7-7-7-7-7-7-7-7-7-7-5-5-5-5-3-3-3-3-3-3-3-3-5-5-5-5-8-8-8-8-|
 |7-7-7-7-7-7-7-7-7-7-7-7-5-5-5-5-3-3-3-3-3-3-3-3-5-5-5-5-8-8-8-8-|
 |7-7-7-7-7-7-7-7-7-7-7-7-5-5-5-5-3-3-3-3-3-3-3-3-5-5-5-5-8-8-8-8-|

 |--------------------------------------------------------6-------|
 |5-----------------------3---5---6---------------8---------------|
 |----------------------------------------------------------------|
 |7-7-7-7-7-7-7-7-7-7-7-7-7-7-7-7-8-8-8-8-8-8-8-8-5-5-5-5-5-5-5-5-|
 |7-7-7-7-7-7-7-7-7-7-7-7-7-7-7-7-8-8-8-8-8-8-8-8-5-5-5-5-5-5-5-5-|
 |7-7-7-7-7-7-7-7-7-7-7-7-7-7-7-7-8-8-8-8-8-8-8-8-5-5-5-5-5-5-5-5-|

 |5---------------------------5-----------------------------------|
 |------------------------8-------8---------------6---------------|
 |--------------------------------------------------------8-------|
 |7-7-7-7-7-7-7-7-7-7-7-7-7-7-7-7-5-5-5-5-5-5-5-5-1-1-1-1-1-1-1-1-|
 |7-7-7-7-7-7-7-7-7-7-7-7-7-7-7-7-5-5-5-5-5-5-5-5-1-1-1-1-1-1-1-1-|
 |7-7-7-7-7-7-7-7-7-7-7-7-7-7-7-7-5-5-5-5-5-5-5-5-1-1-1-1-1-1-1-1-|

RIFF3:
 |----------------------------------------------------------------|
 |----------------------------------------------------------------|
 |----------------------------------------------------------------|
 |----------------------------------------------------------------|
 |7-0-0-0-0-0-0-0-7-0-0-8-0-0-5-0-7-0-0-0-0-0-0-0-2-2-3-3-8-8-5-5-|
 |7-0-0-0-0-0-0-0-7-0-0-8-0-0-5-0-7-0-0-0-0-0-0-0-2-2-3-3-8-8-5-5-|
    . . . . . . .   . .   . .   .   . . . . . . . . . . . . . . .
    
RIFF3(b):
 |----------------------------------------------------------------|
 |----------------------------------------------------------------|
 |----------------------------------------------------------------|
 |----------------------------------------------------------------|
 |7-0-0-0-0-0-0-0-7-0-0-8-0-0-5-0-7-0-0-0-0-0-0-0-2-2-----3-3-----|
 |7-0-0-0-0-0-0-0-7-0-0-8-0-0-5-0-7-0-0-0-0-0-0-0-2-2-----3-3-----|
    . . . . . . .   . .   . .   .   . . . . . . . . .     . .

RAKENNE:
 RIFF1 x4 (vain kitara)
 RIFF1 x4
 RIFF2
 RIFF2    (1. kitara dempattuna, ilman 2. kitaraa)
 RIFF1 x4
 RIFF1    \
 RIFF1(b) / x2
 RIFF3    \
 RIFF3(b) / x2
 RIFF2    (1. kitara dempattuna, ilman 2. kitaraa)
 RIFF1 x4
 RIFF1    \
 RIFF1(b) / x2
 RIFF3    \
 RIFF3(b) / x2
 RIFF3    \ (demppamattomana ja 3. kieli mukana)
 RIFF3(b) / x2
 RIFF1 x4 (vain kitara)
 RIFF1 x "monesti" (fade out)

Valid XHTML 1.0!Valid CSS!