finger   Tabs By VmP123   finger

<<
Kotiteollisuus - Kummitusjuna
 Selvitti: VmP123

RIFF1:
 |----------------------------------------------------------------|
 |----------------------------------------------------------------|
 |----------------------------------------------------------------|
 |----------------------------------------------------------------|
 |3-3-3-5-5-5-4-4-3-3-3-3-3-3-3-0-3-3-3-5-5-5-4-4-4-3-3-3-3-3-3-0-|
 |3-3-3-5-5-5-4-4-3-3-3-3-3-3-3-0-3-3-3-5-5-5-4-4-4-3-3-3-3-3-3-0-|
  . . . . . . . . . . . . . . . . . . . . . . . . . . . . . . . .

RIFF1b:
 |--------------------------------|
 |---------------------------(2x)-|
 |--------------------------------|
 |3-----5-----4-----3-------------|
 |3-----5-----4-----3-----0-0-0-0-|
 |3-----5-----4-----3-----0-0-0-0-|
                          . . . .

RIFF1c:
 |--------------------------------|
 |---------------------------(2x)-|
 |--------------------------------|
 |3-3-3-5-5-5-4-4-4-3-3-3---------|
 |3-3-3-5-5-5-4-4-4-3-3-3-0-0-0-0-|
 |3-3-3-5-5-5-4-4-4-3-3-3-0-0-0-0-|
                          . . . .

RIFF2:
 |------------------------|
 |------------------------|
 |------------------------|
 |0-0-0-3---0-3-0-3-0-5---|
 |0-0-0-3---0-3-0-3-0-5---|
 |0-0-0-3---0-3-0-3-0-5---|

RIFF2b:
 |------------------------|
 |------------------------|
 |------------------------|
 |------------------------|
 |0-0-0-3---0-3-0-3-0-5---|
 |0-0-0-3---0-3-0-3-0-5---|
  . . .     . . . . .

RIFF3:
 |----------------------------------------------------------------|
 |----------------------------------------------------------------|
 |----------------------------------------------------------------|
 |0-0-0-3-3-3-2-2-2-1-1-1-8-8-7-7-A-A-A-9-9-9-C-C-C-A-A-A-3-3-5-5-|
 |0-0-0-3-3-3-2-2-2-1-1-1-8-8-7-7-A-A-A-9-9-9-C-C-C-A-A-A-3-3-5-5-|
 |0-0-0-3-3-3-2-2-2-1-1-1-8-8-7-7-A-A-A-9-9-9-C-C-C-A-A-A-3-3-5-5-|

RIFF4:
 |----------------------------------------------------------------|
 |----------------------------------------------------------------|
 |----------------------------------------------------------------|
 |----------------------------------------------------------------|
 |0-C---0-B---0-A---0-9---8---7---0-6---0-5---0-4---0-3-0-2---1---|
 |0-C---0-B---0-A---0-9---8---7---0-6---0-5---0-4---0-3-0-2---1---|

RIFF4b:
 |----------------------------------------------------------------|
 |----------------------------------------------------------------|
 |----------------------------------------------------------------|
 |----------------------------------------------------------------|
 |0-C---0-B---0-A---0-9---8---7---0-6---0-5---0-4---0-3---2---1---|
 |0-C---0-B---0-A---0-9---8---7---0-6---0-5---0-4---0-3---2---1---|

RIFF5:
 |------------|
 |------------|
 |------------|
 |0-0-x-0-0-x-|
 |0-0-x-0-0-x-|
 |0-0-x-0-0-x-|
  . .   . .


RAKENNE:
 RIFF1  x2
 RIFF1b x2
 RIFF1c x2
 RIFF2  x4
 RIFF2b x8 (VERSE)
 RIFF1c x2
 RIFF2b x8 (VERSE)
 RIFF3  x2 (CHORUS)
 RIFF1c x2
 RIFF2  X8 (VERSE)
 RIFF3  x6 (CHORUS)
 RIFF4
 RIFF4b x2
 RIFF4
 RIFF5  x22
 RIFF4
 RIFF4b
 RIFF4b (fade out...)

Valid XHTML 1.0!Valid CSS!