finger   Tabs By VmP123   finger

<<
Kotiteollisuus - Kivireki (Dropped Db)
 Selvitti: VmP123
 
RIFF1:
 |--------|--------|
 |---(3x)-|--------|
 |--------|--------|
 |0-0-7-8-|0-0-7-x-|
 |0-0-7-8-|0-0-7-x-|
 |0-0-7-8-|0-0-7-x-|

RIFF1b:
 |--------|
 |---(4x)-|
 |--------|
 |0-0-7-8-|
 |0-0-7-8-|
 |0-0-7-8-|

RIFF2:
 |--------------------------------|
 |--------------------------------|
 |--------------------------------|
 |3-3-3-3-3-3-3-3-2-2-2-2-1-1-1-x-|
 |3-3-3-3-3-3-3-3-2-2-2-2-1-1-1-x-|
 |3-3-3-3-3-3-3-3-2-2-2-2-1-1-1-x-|

RIFF3:
 |--------------------------------|
 |--------------------------------|
 |--------------------------------|
 |3-3-3-3-3-3-3-3-5-5-5-5-5-5-5-x-|
 |3-3-3-3-3-3-3-3-5-5-5-5-5-5-5-x-|
 |3-3-3-3-3-3-3-3-5-5-5-5-5-5-5-x-|

RIFF4:
 |----------------------------------------------------------------|
 |----------------------------------------------------------------|
 |----------------------------------------------------------------|
 |0-0-0-0-0-0-0-0-8-8-8-8-8-8-8-8-3-3-3-3-3-3-3-3-7-7-7-7-7-7-7-7-|
 |0-0-0-0-0-0-0-0-8-8-8-8-8-8-8-8-3-3-3-3-3-3-3-3-7-7-7-7-7-7-7-7-|
 |0-0-0-0-0-0-0-0-8-8-8-8-8-8-8-8-3-3-3-3-3-3-3-3-7-7-7-7-7-7-7-7-|

RAKENNE:
 RIFF1  x2
 RIFF1  x4
 RIFF1b x4 \  (VERSE)
 RIFF2     /
 RIFF1b x4 \  (VERSE)
 RIFF3     /
 RIFF4  x2    (CHORUS)
 RIFF1  x2
 RIFF1b x4 \  (VERSE)
 RIFF3     /
 RIFF4  x4    (CHORUS)
 RIFF1  x2
 RIFF1  x4    (OUTRO)

Valid XHTML 1.0!Valid CSS!