finger   Tabs By VmP123   finger

<<
Kotiteollisuus - Kaksin käsin (Dropped Db)
 Selvitti: VmP123
 
RIFF1:
 |----------------|----------------|
 |----------------|-----------(3x)-|
 |----------------|----------------|
 |7-7-7-7-7-7-7-7-|5-5-5-5-5-5-5-5-|
 |5-5-5-5-5-5-5-5-|5-5-5-5-5-5-5-5-|
 |0-0-0-0-0-0-0-0-|5-5-5-5-5-5-5-5-|

RIFF2:
 |----------------------------------------------------------------|
 |----------------------------------------------------------------|
 |----------------------------------------------------------------|
 |0-0-0-0-0-0-0-0-A-A-A-A-A-A-A-A-A-A-A-A-A-A-A-A-5-5-5-5-5-5-5-5-|
 |0-0-0-0-0-0-0-0-A-A-A-A-A-A-A-A-A-A-A-A-A-A-A-A-5-5-5-5-5-5-5-5-|
 |0-0-0-0-0-0-0-0-A-A-A-A-A-A-A-A-A-A-A-A-A-A-A-A-5-5-5-5-5-5-5-5-|
 |
 |------------A-A-------------8-8-------------8-8-------------A-A-|
 |A-A-8-8-A-A-----A-A-8-8-A-A-----A-A-8-8-A-A-----A-A-8-8-A-A-----|
 |----------------------------------------------------------------|
 |----------------------------------------------------------------|
 |----------------------------------------------------------------|
 |----------------------------------------------------------------|

RIFF3:
 |----------------------------------------------------------------|
 |----------------------------------------------------------------|
 |----------------------------------------------------------------|
 |----------------------------------------------------------------|
 |0-0-0-0-0-0-0-0-A-A-A-A-A-A-A-A-A-A-A-A-A-A-A-A-5-5-5-5-5-5-5-5-|
 |0-0-0-0-0-0-0-0-A-A-A-A-A-A-A-A-A-A-A-A-A-A-A-A-5-5-5-5-5-5-5-5-|
  . . . . . . . . . . . . . . . . . . . . . . . . . . . . . . . .

RIFF4:
 |----------------------------------------------------------------|
 |----------------------------------------------------------------|
 |--------------------------------5-5-5-5-5-5-5-5-5-5-5-5-5-5-5-5-|
 |3-3-3-3-3-3-3-3-3-3-3-3-3-3-3-3-5-5-5-5-5-5-5-5-5-5-5-5-5-5-5-5-|
 |3-3-3-3-3-3-3-3-3-3-3-3-3-3-3-3-3-3-3-3-3-3-3-3-3-3-3-3-3-3-3-3-|
 |3-3-3-3-3-3-3-3-3-3-3-3-3-3-3-3---------------------------------|

 |----------------------------------------------------------------|
 |----------------------------------------------------------------|
 |2-2-2-2-2-2-2-2-2-2-2-2-2-2-2-2-3-3-3-3-3-3-3-3-----------------|
 |2-2-2-2-2-2-2-2-2-2-2-2-2-2-2-2-3-3-3-3-3-3-3-3-3-3-3-3-3-3-3-3-|
 |0-0-0-0-0-0-0-0-0-0-0-0-0-0-0-0-1-1-1-1-1-1-1-1-3-3-3-3-3-3-3-3-|
 |------------------------------------------------3-3-3-3-3-3-3-3-|

RIFF4b:
 |------------------------------------------------|
 |------------------------------------------------|
 |2-2-2-2-2-2-2-2-2-2-2-2-2-2-2-2-3-3-3-3-3-3-3-3-|
 |2-2-2-2-2-2-2-2-2-2-2-2-2-2-2-2-3-3-3-3-3-3-3-3-|
 |0-0-0-0-0-0-0-0-0-0-0-0-0-0-0-0-1-1-1-1-1-1-1-1-|
 |------------------------------------------------|
 
RIFF5:
 |----------------------------------------------------------------|
 |----------------------------------------------------------------|
 |----------------------------------------------------------------|
 |----------------------------------------------------------------|
 |5-5-5-5-5-5-5-5-5-5-5-5-5-5-5-5-7-7-7-7-7-7-7-7-3-3-3-3-3-3-3-3-|
 |5-5-5-5-5-5-5-5-5-5-5-5-5-5-5-5-7-7-7-7-7-7-7-7-3-3-3-3-3-3-3-3-|
  . . . . . . . . . . . . . . . . . . . . . . . . . . . . . . . .

RIFF6:
 |----------------------------------------------------------------|
 |----------------------------------------------------------------|
 |----------------------------------------------------------------|
 |6-6-6-6-6-6-6-6-6-6-6-6-6-6-6-6-1-1-1-1-1-1-1-1-1-1-1-1-1-1-1-1-|
 |6-6-6-6-6-6-6-6-6-6-6-6-6-6-6-6-1-1-1-1-1-1-1-1-1-1-1-1-1-1-1-1-|
 |6-6-6-6-6-6-6-6-6-6-6-6-6-6-6-6-1-1-1-1-1-1-1-1-1-1-1-1-1-1-1-1-|

 |----------------------------------------------------------------|
 |----------------------------------------------------------------|
 |5-5-5-5-5-5-5-5-5-5-5-5-5-5-5-5-6-6-6-6-6-6-6-6-----------------|
 |5-5-5-5-5-5-5-5-5-5-5-5-5-5-5-5-6-6-6-6-6-6-6-6-6-6-6-6-6-6-6-6-|
 |3-3-3-3-3-3-3-3-3-3-3-3-3-3-3-3-4-4-4-4-4-4-4-4-6-6-6-6-6-6-6-6-|
 |------------------------------------------------6-6-6-6-6-6-6-6-|

RIFF6b:
 |----------------------------------------------------------------|
 |----------------------------------------------------------------|
 |5-5-5-5-5-5-5-5-5-5-5-5-5-5-5-5-6-6-6-6-6-6-6-6-----------------|
 |5-5-5-5-5-5-5-5-5-5-5-5-5-5-5-5-6-6-6-6-6-6-6-6-6-6-6-6-6-6-6-6-|
 |3-3-3-3-3-3-3-3-3-3-3-3-3-3-3-3-4-4-4-4-4-4-4-4-6-6-6-6-6-6-6-6-|
 |------------------------------------------------6-6-6-6-6-6-6-6-|

RAKENNE:
 RIFF1 x2
 RIFF2 x2
 RIFF3 x2 (basso) \ (VERSE)
 RIFF3 x2         /
 RIFF4 x2           (CHORUS)
 RIFF2 x2
 RIFF3 x2 (basso) \ (VERSE)
 RIFF3 x2         /
 RIFF4 x2         \ (CHORUS)
 RIFF4b           /
 RIFF5 x2         \ (INTERLUDE)
 Gb               /
 RIFF6 x2         \ (CHORUS moduloituna)
 RIFF6b           /

Valid XHTML 1.0!Valid CSS!