finger   Tabs By VmP123   finger

<<
Kotiteollisuus - Kadonneet (Dropped Db)
 Selvitti: VmP123

RIFF1:
 |--------------------------------|
 |--------------------------------|
 |--------------------------------|
 |--------------------------------|
 |0-2---0-3---0-6---0-2---0-3---2-|
 |0-2---0-3---0-6---0-2---0-3---2-|
 |0-2---0-3---0-6---0-2---0-3---2-|

RIFF1b:
 |--------------------------------
 |--------------------------------
 |--------------------------------
 |--------------------------------
 |0-2---0-3---0-6---0-2---0-3...--
 |0-2---0-3---0-6---0-2---0-3...--
 |0-2---0-3---0-6---0-2---0-3...--

RIFF2:
 |----------------------------------------------------------------|
 |----------------------------------------------------------------|
 |----------------------------------------------------------------|
 |0-0-------------0-0-------------1-1-------------0-0-------------|
 |0-0-------------0-0-------------1-1-------------0-0-------------|
 |0-0-------------0-0-------------1-1-------------0-0-------------|
    '               '               '               '
 |----------------------------------------------------------------|
 |----------------------------------------------------------------|
 |5-5-------------5-5---------------------------------------------|
 |5-5-------------5-5-------------1-1-------------0-0-----0-0-----|
 |3-3-------------3-3-------------1-1-------------0-0-----0-0-----|
 |--------------------------------1-1-------------0-0-----0-0-1---|
    '               '               '               '
RIFF2b:
 |----------------------------------------------------------------|
 |----------------------------------------------------------------|
 |----------------------------------------------------------------|
 |----------------------------------------------------------------|
 |0-0-0-0-0-0-0-0-0-0-0-0-0-0-0-0-1-1-1-1-1-1-1-1-0-0-0-0-0-0-0-0-|
 |0-0-0-0-0-0-0-0-0-0-0-0-0-0-0-0-1-1-1-1-1-1-1-1-0-0-0-0-0-0-0-0-|
  . . . . . . . . . . . . . . . . . . . . . . . . . . . . . . . .
 |----------------------------------------------------------------|
 |----------------------------------------------------------------|
 |----------------------------------------------------------------|
 |5-5-5-5-5-5-5-5-5-5-5-5-5-5-5-5---------------------------------|
 |3-3-3-3-3-3-3-3-3-3-3-3-3-3-3-3-1-1-1-1-1-1-1-1-0-0-0-0-0-0-----|
 |--------------------------------1-1-1-1-1-1-1-1-0-0-0-0-0-0-1---|
  . . . . . . . . . . . . . . . . . . . . . . . . . . . . . .

RIFF3:
 |----------------------------------------------------------------|
 |----------------------------------------------------------------|
 |----------------5-5-5-5-5-5-5-5---------------------------------|
 |3-3-3-3-3-3-3-3-5-5-5-5-5-5-5-5-5-5-5-5-5-5-5-5-8-8-8-8-8-8-8-8-|
 |3-3-3-3-3-3-3-3-3-3-3-3-3-3-3-3-5-5-5-5-5-5-5-5-8-8-8-8-8-8-8-8-|
 |3-3-3-3-3-3-3-3-----------------5-5-5-5-5-5-5-5-8-8-8-8-8-8-8-8-|

 |----------------------------------------------------------------|
 |----------------------------------------------------------------|
 |----------------5-5-5-5-5-5-5-5---------------------------------|
 |3-3-3-3-3-3-3-3-5-5-5-5-5-5-5-5-3-3-3-3-3-3-3-3-3-3-3-3-3-3-----|
 |3-3-3-3-3-3-3-3-3-3-3-3-3-3-3-3-1-1-1-1-1-1-1-1-1-1-1-1-1-1-0---|
 |3-3-3-3-3-3-3-3-------------------------------------------------|
                                  . . . . . . . . . . . . . .

RAKENNE:
  RIFF1 x3
  RIFF1b
  RIFF2    \ (VERSE)
  RIFF2b   /
  RIFF3 x2   (CHORUS)
  RIFF1 x4
  RIFF2    \ (VERSE)
  RIFF2b   /
  RIFF3 x2   (CHORUS)
  RIFF3 x2   (CHORUS, eka kierto ilman deppejä)
  RIFF1 x4
  RIFF1 x3
  RIFF1b

Valid XHTML 1.0!Valid CSS!