finger   Tabs By VmP123   finger

<<
Kotiteollisuus - Iankaikkinen
 Selvitti: VmP123
 
RIFF1:
 |----------------------------------------------------------------|
 |----------------------------------------------------------------|
 |----------------------------------------------------------------|
 |000---000-0-0000--000-0-666-666-000---0006506500----------------|
 |000---000-0-0000--000-0-666-666-000---0006506500--5555555666633-|
 |000---000-0-0000--000-0-666-666-000---0006506500----------------|
  ...   ... . ....  ... . ... ... ...   ..........

RIFF2:
 |--------------------------------|
 |--------------------------------|
 |--------------------------------|
 |--------------------------------|
 |--------------------------------|
 |000--000-0-000--111--111-1-111--|
  ...  ... . ...  ...  ... . ...

RIFF2b:
 |--------------------------------|
 |--------------------------------|
 |--------------------------------|
 |--------------------------------|
 |--------------------------------|
 |000--000-0-000----11--1136536---|
  ...  ... . ...    ..  ..    '

RIFF2c:
  x   x   x   x   x   x   x   x
 |--------------------------------|
 |--------------------------------|
 |--------------------------------|
 |--------------------------------|
 |--------------------------------|
 |000--000-0-000----000-0-36536---|
  ...  ... . ...    ... .     '

RIFF3:
 |----------------------------------------------------------------|
 |----------------------------------------------------------------|
 |----------------------------------------------------------------|
 |0-0-0-0-7-7-7-7-0-0-0-0-0-0-0-0-8-8-8-8-8-8-8-8-A-A-A-A-A-A-A-A-|
 |0-0-0-0-7-7-7-7-0-0-0-0-0-0-0-0-8-8-8-8-8-8-8-8-A-A-A-A-A-A-A-A-|
 |0-0-0-0-7-7-7-7-0-0-0-0-0-0-0-0-8-8-8-8-8-8-8-8-A-A-A-A-A-A-A-A-|

 |------------------------------------------------|
 |------------------------------------------------|
 |------------------------------------------------|
 |7-7-7-7-7-7-7-7-8-8-8-8-8-8-8-8-5-5-5-5-7-7-7-7-|
 |7-7-7-7-7-7-7-7-8-8-8-8-8-8-8-8-5-5-5-5-7-7-7-7-|
 |7-7-7-7-7-7-7-7-8-8-8-8-8-8-8-8-5-5-5-5-7-7-7-7-|

RIFF3b:
 |----------------|
 |----------------|
 |----------------|
 |0-0-0-0-0-0-0-0-|
 |0-0-0-0-0-0-0-0-|
 |0-0-0-0-0-0-0-0-|

RAKENNE:
 RIFF1 x2    ("soita kevyemmin")
 RIFF1 x2
 RIFF2 x7 \  (VERSE)
 RIFF2b   /
 RIFF3       (CHORUS)
 RIFF1 X2
 RIFF2 x7 \  (VERSE)
 RIFF2c   /
 RIFF3    \
 RIFF3b    \ (CHORUS)
 RIFF3    /
 RIFF1 x4    (OUTRO, toisella kitaralla melodiaa)
 Db5

Valid XHTML 1.0!Valid CSS!