finger   Tabs By VmP123   finger

<<
Kotiteollisuus - Arkunnaula (Dropped Db)
 Selvitti: VmP123
 
RIFF1:
 |------------------------|
 |------------------------|
 |------------------------|
 |0-0-0-3-7-7-5-3-5-3-7---|
 |0-0-0-3-7-7-5-3-5-3-7---|
 |0-0-0-3-7-7-5-3-5-3-7---|
 
RIFF2:
 |------------------------------------------------------------------------------------------------|
 |------------------------------------------------------------------------------------------------|
 |------------------------------------------------------------------------------------------------|
 |0-0---------------------------------------------------------------------------------------------|
 |0-0-0-0-0-0-0-0-0-0-0-0-0-0-0-0-A-A-A-A-A-A-A-A-A-A-A-A-A-A-A-A-5-5-5-5-5-5-5-5-5-5-5-5-5-5-5-5-|
 |0-0-0-0-0-0-0-0-0-0-0-0-0-0-0-0-A-A-A-A-A-A-A-A-A-A-A-A-A-A-A-A-5-5-5-5-5-5-5-5-5-5-5-5-5-5-5-5-|
      . . . . . . . . . . . . . . . . . . . . . . . . . . . . . . . . . . . . . . . . . . . . . .

RIFF3:
 |--------------------------------|
 |--------------------------------|
 |--------------------------------|
 |7-7-7-7-7-7-7-7-5-5-5-5-5-5-5-5-|
 |7-7-7-7-7-7-7-7-7-7-7-7-7-7-7-7-|
 |7-7-7-7-7-7-7-7-5-5-5-5-5-5-5-5-|

RIFF4:
 |----------------------------------------------------------------|
 |----------------------------------------------------------------|
 |----------------------------------------------------------------|
 |0-0-0-0-0-0-0-0-2-2-2-2-2-2-2-2-A-A-A-A-A-A-A-A-5-5-5-5-5-5-5-5-|
 |0-0-0-0-0-0-0-0-2-2-2-2-2-2-2-2-A-A-A-A-A-A-A-A-5-5-5-5-5-5-5-5-|
 |0-0-0-0-0-0-0-0-2-2-2-2-2-2-2-2-A-A-A-A-A-A-A-A-5-5-5-5-5-5-5-5-|

 |----------------------------------------------------------------|
 |----------------------------------------------------------------|
 |----------------------------------------------------------------|
 |0-0-0-0-0-0-0-0-2-2-2-2-2-2-2-2-3-3-3-3-3-3-3-3-5-5-5-5-5-5-5-5-|
 |0-0-0-0-0-0-0-0-2-2-2-2-2-2-2-2-3-3-3-3-3-3-3-3-5-5-5-5-5-5-5-5-|
 |0-0-0-0-0-0-0-0-2-2-2-2-2-2-2-2-3-3-3-3-3-3-3-3-5-5-5-5-5-5-5-5-|


RAKENNE:
 RIFF1  x4
 RIFF2  \
 RIFF1   \
 RIFF2   / (VERSE)
 RIFF3  /
 RIFF4  x2 (CHORUS)
 RIFF1  x4
 RIFF2  \
 RIFF1   \
 RIFF2   / (VERSE)
 RIFF3  /
 RIFF4  x4 (CHORUS)
 RIFF4  x2 (SOOLO)

Valid XHTML 1.0!Valid CSS!