finger   Tabs By VmP123   finger

<<
Kollaa Kestää - Syksy
 Selvitti: VmP123
 
INTRO/CHORUS/SOOLO(vain soinnut):
  E5                              H5                                  \
 |----------------------------------------------------------------|   |
 |----------------------------------------------------------------|   |
 |--------------------------------------------6---7-------8-------|   |
 |------------------------8-------9-------------------------------|   |
 |7-----------9---A-----------------------------------------------|   |
 |----------------------------------------------------------------|   |
  A5                              E5                                  | x2
 |----------------------------------------------------------------|   |
 |----------------8-------A-------8-------------------------------|   |
 |9-----------B-------------------------------9---9---------------|   |
 |----------------------------------------------------------------|   |
 |----------------------------------------------------------------|   |
 |----------------------------------------------------------------|   /

VERSE:
 |--------------------------------|--------------------------------|
 |---------------------------(8x)-|---------------------------(2x)-|
 |--------------------------------|--------------------------------|
 |9---------------7---------------|--------------------------------|
 |7---------------5---------------|7-7-7-7-7-7-7-7-7-7-7-7-7-7-7-7-|
 |--------------------------------|5-5-5-5-5-5-5-5-5-5-5-5-5-5-5-5-|

OUTRO:
 |--------------------------------|
 |---------------------------(4x)-|
 |--------------------------------|
 |7---------------9---------------|
 |5---------------7---------------|
 |--------------------------------|


RAKENNE:
 INTRO
 VERSE
 CHORUS
 VERSE
 CHORUS
 SOOLO
 VERSE
 CHORUS
 OUTRO

Valid XHTML 1.0!Valid CSS!