finger   Tabs By VmP123   finger

<<
Kollaa Kestää - Kaupunkisissi
 Selvitti: VmP123

RIFFI1:
 |-------kesto: 2 tahtia----------|
 |--------------------------------|
 |--------------------------------|
 |4-4-4-4---4-4-4-2-2-2-2---------|
 |2-2-5-2---2-2-2-0-0-0-0-2-2-2-2-|
 |------------------------0-0-0-0-|

RIFFI2:
 |-------kesto: 2 tahtia----------|
 |--------------------------------|
 |--------------------------------|
 |4---------------4---------------|
 |2---------------2---------------|
 |--------------------------------|

RIFFI3:
 |-------kesto: 8 tahtia------------------------------------------|
 |----------------------------------------------------------------|
 |----------------4-----------------------------------------------|
 |4-------4-------2-------4-------4-------4-----------------------|
 |2-------2---------------2-------2-------2-------4-------4-------|
 |------------------------------------------------2-------2-------|


RAKENNE:
 RIFFI1 x2 (vain kitara)
 RIFFI1 x2
 RIFFI1 x4 ("mä oon kaupunkisissi...")
 RIFFI2
 RIFFI3 ("siis varo herra liikemies...")
 RIFFI1 x4 ("mä oon kova jätkä...")
 RIFFI2
 RIFFI3 ("siis varo herra mustakaapu...")
 RIFFI1 x4   \
 RIFFI2       \ (sax-soolo)
 RIFFI3       /
 RIFFI1 x4 ("mä oon intellektuelli...")
 RIFFI2
 RIFFI3 ("siis varo rouva kaupunkimissi...")
 LOPETUS: H5

Valid XHTML 1.0!Valid CSS!