finger   Tabs By VmP123   finger

<<
Klamydia - Viidakkolaulu
 Selvitti: VmP123

INTRO:
 |--------------------------------|
 |---------------------------(2x)-|
 |--------------------------------|
 |----5-------5-------5-----------|
 |5---3---5---3---5---3---5-------|
 |3-------3-------3-------3-------|

VERSE:
 |----------------|----------------|
 |-----------(3x)-|----------------|
 |----------------|----------------|
 |----------------|5-------7-------|
 |5-------2-------|3-------5-------| x2
 |3-------0-------|----------------|

PRE-CHORUS:
 |----------------------------------------------------------------|----------------|
 |-----------------------------------------------------------(2x)-|----------------|
 |----------------------------------------------------------------|----------------|
 |5-------------------------------5---------------7---------------|7---------------|
 |3---------------5---------------3---------------5---------------|5---------------|
 |----------------3-----------------------------------------------|----------------|

CHORUS:
 |----------------------------------------------------------------|
 |-----------------------------------------------------------(2x)-|
 |----------------------------------------------------------------|
 |5-------7---------------5---------------7-------5-------7-------|
 |3-------5-------5-------3-------5-------5-------3-------5-------|
 |----------------3---------------3-------------------------------|

INTRO
VERSE
PRE-CHORUS
CHORUS

OUTRO:
 |--------------------------------|----------------|
 |---------------------------(4x)-|----------------|
 |--------------------------------|----------------|
 |9-------5---------------7-------|9---------------|
 |7-------3-------5-------5-------|7---------------|
 |----------------3---------------|----------------|

Valid XHTML 1.0!Valid CSS!