finger   Tabs By VmP123   finger

<<
Klamydia - Vastaantulija
 Selvitti: VmP123

INTRO:
  C5       A5       F5       G5       E5       F5       G5       C5
 |------------------------------------------------------------------------|
 |------------------------------------------------------------3-----------|
 |0-----------------2-----------------0-----0--2--4--5--4--5-----5--------|
 |---2--0-----0--2-----3--2--0--2--3-----2--------------------------------|
 |---------3--------------------------------------------------------------|
 |------------------------------------------------------------------------|

BRIDGE:
 |-----------------|
 |-----------------|
 |55--44--22-5--4--|
 |33--22--00-3--2--|
 |-----------------|
 |-----------------|

VERSE:
 | A5 | E5 | G5 | A5 | x2
 
CHORUS:
 | C5 | G5 | E5 | A5 |
 | A5 | E5 | E5 | A5 |


INTRO
VERSE
CHORUS
BRIDGE
VERSE
CHORUS
INTRO
VERSE
CHORUS x2
BRIDGE
| A5 |

Valid XHTML 1.0!Valid CSS!