finger   Tabs By VmP123   finger

<<
Klamydia - Tosi Routari
 Selvitti: VmP123
 
INTRO:
  A5              F5              G5              C5
 |----------------------------------------------------------------|
 |------A---------8---------------------8---------6---------------|
 |9-----------9---------A---------7-----------7---------9---------|
 |----------------------------------------------------------------|
 |----------------------------------------------------------------|
 |----------------------------------------------------------------|

  F5              D5              E5              G5
 |----------------------------------------------------------------|
 |------5-----6---5-----------------------------------------------|
 |5-------------------7---5---7---4---5---4-------4---------------|
 |--------------------------------------------7-------------------|
 |----------------------------------------------------------------|
 |----------------------------------------------------------------|

  A5              F5              G5              C5
 |----------------------------------------------------------------|
 |--------A-----------8-------------------8-------5---6-5---------|
 |9---8-9-----9---A-----A---9-7---7---5-7-----7-------------7-5---|
 |----------------------------------------------------------------|
 |----------------------------------------------------------------|
 |----------------------------------------------------------------|

  F5              D5              E5              G5
 |----------------------------------------------------------------|
 |--------5---6---5-----------------------------------------------|
 |5---4-5-------------7---5---7---4---5---4-------7---------------|
 |--------------------------------------------7-------------------|
 |----------------------------------------------------------------|
 |----------------------------------------------------------------|

INTRO(b):
  A5
 |--------------------------------|
 |--------------------------------|
 |9-------------------------------|
 |--------------------------------|
 |--------------------------------|
 |--------------------------------|

VERSE (8 tahtia):
 |----------------------------------------------------------------|
 |----------------------------------------------------------------|
 |----------------------------------------------------------------|
 |2-----------------------5---5---2-----------------------5-------|
 |0-------3-------5-------3---2---0-------3-------5-------3-------|
 |--------1-------3-----------------------1-------3---------------|
  .       .       .       .   .   .       .       .

PRE-CHORUS:
 |----------------------------------------------------------------|
 |----------------------------------------------------------------|
 |----------------------------------------------------------------|
 |A-------7---------------------------------------7---------------|
 |8-------5-------2-------3-------2-------3-------5-------5-------|
 |----------------0-------1-------0-------1---------------3-------|

PRE-CHORUS(b):
 |--------|
 |--------|
 |--------|
 |--------|
 |5-x-----|
 |3-x-----|

CHORUS:
 |--------------------------------|--------------------------------|
 |---------------------------(3x)-|--------------------------------|
 |--------------------------------|--------------------------------|
 |5---------------7---------------|5---------------5---7-----------|
 |3-------5-------5-------5-------|3-------5-------3---5---5-------|
 |--------3---------------3-------|--------3---------------3-------|

CHORUS(b):
 |----------------|
 |----------------|
 |----------------|
 |----------------|
 |2-------2-------|
 |0-------0-------|

OUTRO:
 |----------------|
 |----------------|
 |----------------|
 |5-----------4-5-|
 |3-----------2-3-|


INTRO
INTRO(b)
VERSE
PRE-CHORUS
PRE-CHORUS(b)
CHORUS
CHORUS(b)
VERSE
PRE-CHORUS
PRE-CHORUS(b)
CHORUS
INTRO
PRE-CHORUS(b)
CHORUS
OUTRO

Valid XHTML 1.0!Valid CSS!