finger   Tabs By VmP123   finger

<<
Klamydia - Tahdistin Vaarassa
 Selvitti: VmP123
 
INTRO:
 |----------------------------------|
 |----------------------------------|
 |----------------------------------|
 |------9-7-7-7-12-9-9--------------|
 |7-7-7-7-5-5-5--9-7-7-12-9-7-7-7-7-|
 |5-5-5-----------------9-7-5-5-5-5-| x2

INTRO(b):
 |--------------------------------|
 |--------------------------------|
 |--------------------------------|
 |------7-----------------9-9-9-9-|
 |7-x---5-7-x-----7-7-7-7-7-7-7-7-|
 |5-x-----5-x-----5-5-5-5---------|

VERSE:
 | A5 | A5 | F#5 | F#5 | \ x
 | D5 | D5 | E5  | E5  | / 2

BRIDGE:
 | D5 | E5 | F#5 | D5 |
 | D5 | D5 | E5  | E5 |
 | E5 | E5 x |

CHORUS:
 | A5 | E5 | D5 | E5 | x3
 | A5 | E5 | D5 E5 | A5 |
 
SOOLO(basso):
 |    |    |    |    | x4

INTRO
INTRO(b)
VERSE
BRIDGE
CHORUS
SOOLO
INTRO(b)
VERSE
BRIDGE
CHORUS x2
| D5 E5 | A5 |

Valid XHTML 1.0!Valid CSS!