finger   Tabs By VmP123   finger

<<
Klamydia - Pala Rauhaa
 Selvitti: VmP123

INTRO (2x):
 |------C---------------C-------------C-------C---A-----9-------|
 |Ap9hA-------Ap9-Ap9hA-------Ap9-9hA-----9hA---------------C---| <- 2. kitara
 |--------------------------------------------------------------|
 |------------------------------------------------7-----7---4---|
 |7---------------2---------------4---------------5-----4---2---|
 |5---------------0---------------2-----------------------------| <- 1. kitara

VERSE (2x):
 |------------------------------------------------|
 |------------------------------------------------|
 |------------------------------------------------|
 |------------------------------------------------|
 |------4-...-------------------4-...-5-...-7-...-|
 |5-...-------2-...-0-...-5-...-------------------|
  .     .     .     .     .     .     .     .

PRE-CHORUS:
 |------------------------------------------------|
 |------------------------------------------------|
 |------------------------------------------------|
 |9---7---6---4-----------------------------------|
 |7---5---4---2-----------------------------------|
 |----------------0-0-0-0-0-0-0-0-0-0-0-0-0-0-0-0-|

CHORUS (2x):
 |--------------------------------------------------------|
 |--------------------------------------------------------|
 |--------------------------------------------------------|
 |----------------7-------7---------------7-------9-7-6-4-|
 |7-------2-------5-------5-------4-------5-------7-5-4-2-|
 |5-------0-----------------------2-----------------------|

BRIDGE:
 |----------------------------------------------------------------------------|
 |----------------------------------------------------------------------------|
 |----------------------------------------------------------------------------|
 |7-------9-----------------------7-------7-------9---7---6---4---------------|
 |5-------7-------7-------4-------5-------5-------7---5---4---2---------------|
 |----------------5-------2---------------------------------------0-...-0-...-|

RAKENNE:
 INTRO
 | A5 | A5 |
 VERSE
 PRE-CHORUS
 CHORUS
 | A5 | A5 |
 VERSE
 PRE-CHORUS
 CHORUS
 SOOLO (INTRO)
 BRIDGE
 CHORUS
 | A5 |

... = soitetaan samaa koko tahti

Valid XHTML 1.0!Valid CSS!