finger   Tabs By VmP123   finger

<<
Klamydia - Nykyajan nuoriso
 Selvitti: VmP123

INTRO:
 |--------------------------------|
 |---------------------------(2x)-|
 |--------------------------------|
 |--------8-------4-------6-------|
 |4-------6-------2-------4-------|
 |2-------------------------------|

VERSE:
 |----------------|
 |-----------(8x)-|
 |----------------|
 |----------------|
 |----222244442222|
 |2222------------|
  ................

PRE-CHORUS:
 |----------------------------------------------------------------|
 |----------------------------------------------------------------|
 |----------------------------------------------------------------|
 |6-------4-----------------------6-------4-------6-------x-------|
 |4-------2-------4-------4-------4-------2-------4-------x-------|
 |----------------2-------2---------------------------------------|

CHORUS:
 |--------------------------------|
 |---------------------------(4x)-|
 |--------------------------------|
 |--------4-------6------56-------|
 |4-------2-------4------34-------|
 |2-------------------------------|

INTRO
VERSE
PRE-CHORUS
CHORUS x1
LOPETUS: F#5

Valid XHTML 1.0!Valid CSS!