finger   Tabs By VmP123   finger

<<
Klamydia - Mettämaratoonari
 Selvitti: VmP123
 
INTRO:
 |--------------------------------|
 |--------------------------------|
 |--------------------------------|
 |------9-------B-------9-------B-|
 |9-9-9-7-9-9-9-9-9-9-9-7-9-9-9-9-|
 |7-7-7---7-7-7---7-7-7---7-7-7---|

VERSE:
 |--------------------------------|
 |--------------------------------|
 |--------------------------------|
 |--------B-B-B-B-9-9-9-9-9-9-9-B-|
 |9-9-9-9-9-9-9-9-7-7-7-7-7-7-7-9-|
 |7-7-7-7-------------------------| x3

 |--------------------------------|
 |--------------------------------|
 |--------------------------------|
 |--------B-B-B-B-9-9-9-9-9-9-9-9-|
 |9-9-9-9-9-9-9-9-7-7-7-7-7-7-7-7-|
 |7-7-7-7-------------------------|

CHORUS:
 |--------------------------------|
 |--------------------------------|
 |--------------------------------|
 |D-D-D-D-D-D-D-D-9-9-9-9-B-B-B-B-|
 |B-B-B-B-B-B-B-B-7-7-7-7-9-9-9-9-|
 |--------------------------------| x4

BRIDGE:
 |------------------|
 |------------------|
 |------------(2T)--|
 |-(4T)------B-...--|
 |9-...------9-...--|
 |7-...-------------|

RAKENNE:
 (RUMMUTTELUA)
 INTRO
 VERSE
 CHORUS
 INTRO
 VERSE
 CHORUS
 (RUMMUTTELUA, 4T)
 BRIDGE
 CHORUS
 LOPETUS: H5

Valid XHTML 1.0!Valid CSS!