finger   Tabs By VmP123   finger

<<
Klamydia - Hannulla On Asiaa
 Selvitti: VmP123

INTRO:
      H5                          G5
 ----|----------------------------------------------------------------|
 ----|----------------------------------------------------------------|
 ----|4---7---6-------4---------------4---7---6-------4---------------|
 4---|------------7---------------4---------------7---------------4---|
 ----|----------------------------------------------------------------|
 ----|----------------------------------------------------------------|
      E5                          F#5                 G5
     |----------------------------------------------------------------|
     |----------------------------------------------------------------|
     |4---7---6-------4---7---6-------4---6-6---------4---6-6---------|
     |------------7---------------7---------------7-------------------|
     |----------------------------------------------------------------|
     |----------------------------------------------------------------|

VERSE:
 | D5 | D5 | H5 | H5 | \ x
 | G5 | G5 | A5 | A5 | / 3

BRIDGE:
 | F#5 | H5  | E5 | A5 |
 | F#5 | H5  | E5 | E5 |
 | A5  | F#5 |

CHORUS:
 | H5 | G5 | A5 | D5 |  x2
 | H5 | G5 | A5 | H5 A5 H5 A5 |
 | H5 | G5 | A5 | A5 |

RAKENNE:
 INTRO
 VERSE
 BRIDGE
 CHORUS
 INTRO
 VERSE
 BRIDGE
 CHORUS x2
 | D5 |

Valid XHTML 1.0!Valid CSS!