finger   Tabs By VmP123   finger

<<
Kari Peitsamo - Vanha Ränsistynyt Elokuvateatteri
 Selvitti: VmP123

Riffi1:
 |--------------------------------|
 |--------------------------------|
 |------2-x-2---------0-2---------|
 |------2-x-2-------2---0---------|
 |0---x---------0-3-------------2-|
 |--------------------------0-3---|

Riffi2:
 |--------------------------------|
 |--------------------------------|
 |--------------------------------|
 |----------------2---x---2-5-4-2-|
 |3---x-3-5---x-5-0---x-03--------|
 |1---x-1-3---x-3-----------------|

Riffi2b:
 |--------------------------------|
 |--------------------------------|
 |--------------------------------|
 |----------------2---x---5-5-4-2-|
 |3---x-3-5---x-5-0---x-03--------|
 |1---x-1-3---x-3-----------------|

Riffi2c:
 |--------------------------------|
 |--------------------------------|
 |--------------------------------|
 |----------------2-------x-------|
 |3---x-3-5---x-5-0-------x-------|
 |1---x-1-3---x-3-----------------|


Riffi1  x2
Riffi1  (VERSE)  x4
Riffi2  (CHORUS)
Riffi2c (CHORUS)
Riffi1  (VERSE)  x4
Riffi2  (CHORUS)
Riffi2c (CHORUS)
Riffi1 \ x2
 A5    /
Riffi2b (CHORUS)
Riffi2c (CHORUS)

Valid XHTML 1.0!Valid CSS!