finger   Tabs By VmP123   finger

<<
Kari Peitsamo - Telecaster, Dartti ja Käärmeennahkabootsit
 Selvitti: VmP123

RIFF1:
  G       C     D
 |--------------2---2-2-2-3-2-0-2-|
 |----0-------1-3---3-3-3-3-3-3-3-|
 |----0-------0-2---2-2-2-2-2-2-2-|
 |--0-------2---0-----------------|
 |--------3-----------------------|
 |3-------------------------------|

RIFF1b:
  G       C     D
 |--------------2-----------------|
 |----0-------1-3-----------------|
 |----0-------0-2-----------------|
 |--0-------2---0-----------------|
 |--------3-----------------------|
 |3-------------------------------|

RIFF2:
  G       C     D
 |--------------2---2-2-2-3-2-0-2-|
 |----0---------3---3-3-3-3-3-3-3-|
 |------0-----0-2---2-2-2-2-2-2-2-|
 |--0-------2---0-----------------|
 |--------3-----------------------|
 |3-------------------------------|
 
RIFF2b:
  G       C     D
 |--------------2-----------------|
 |----0---------3-----------------|
 |------0-----0-2-----------------|
 |--0-------2---0-----------------|
 |--------3-----------------------|
 |3-------------------------------|

RIFF3:
  C       D       G
 |--------------------------------|
 |----1-------3---------0---------|
 |------0---2---2-----0-----------|
 |--2-----0---------0-------------|
 |3-------------------------------|
 |----------------3---------------|

RIFF3b:
  C               D
 |----------------2---------------|
 |----1-----------3---------------|
 |----------------2---------------|
 |--2-------------0---------------|
 |3-------------------------------|
 |--------------------------------|

RAKENNE:
 RIFF1 x3
 RIFF1b
 RIFF2 x7   (VERSE)
 RIFF2b
 RIFF3 x3 \
 RIFF3b   / (CHORUS)
 RIFF1 x3
 RIFF1b
 RIFF2 x7   (VERSE)
 RIFF2b
 RIFF3 x3 \
 RIFF3b   / (CHORUS)
 RIFF1 x3
 RIFF1b


 Ei nuotiokaan enää valoa anna.
 Ei eräämaa mun huutoa kanna
 Luoksesi sun on päästävä mun.
 Ja ennenkuin aamu saa tahdon sua rakastaa.
 
   Telecaster, Dartti ja käärmeennahkabootsit
   ne kuljettaa mut mihin vaan.
   Kengät tuomut kotiin, jos auto vie mut pois
   ja kitaralla sieluas sun syleillä saan.

 En oo oikea cowboy, pelkään pimeää.
 Ja etten sua koskaan enää mä nää.
 En oo oikea cowboy, en hevosta kiinni saa.
 Mutta tahdon sun kuulevan, kun näppäilen kitaraa.

   Telecaster, Dartti ja käärmeennahkabootsit
   ne kuljettaa mut mihin vaan.
   Kengät tuomut kotiin, jos auto vie mut pois
   ja kitaralla sieluas sun syleillä saan.

Valid XHTML 1.0!Valid CSS!