finger   Tabs By VmP123   finger

<<
Kari Peitsamo - Lato
 Selvitti: VmP123
 
RIFFI1:
 |----------------|
 |----------------|
 |----------------|
 |2-----------5---|
 |0-----5-----3---|
 |------3---------|
 
RIFFI2:
 |----------------|
 |----------------|
 |2-2-2-2-2-2-2-2-|
 |0-0-0-0-0-0-0-0-|
 |----------------|
 |----------------|


RIFFI1 x4 (VERSE)
RIFFI2    (CHORUS)
RIFFI1 x2
RIFFI1 x4 (VERSE)
RIFFI2    (CHORUS)
RIFFI1 x2
RIFFI1 x4 (VERSE)
RIFFI2    (CHORUS)
RIFFI1
| A5 |

  Hain lakkaa satamasta
  kun myrsky yllätti mun
  niin syksyllä voi käydä
  joskus kelle vain
  
    Juoksin latoon!
    
  Tää lato lämmin on
  vain heinissä makaan
  ja katson salamoita
  ra'oist lautojen
  
    Ukkonen lyö!
    
  Nyt sataa koko yön
  oon siitä iloinen
  saan maata ladossa
  viis kotiväestä
  
    Tuuli terveiset vie!

Valid XHTML 1.0!Valid CSS!