finger   Tabs By VmP123   finger

<<
Kari Peitsamo - Kun Kiinan Muuria Rakennettiin
 Selvitti: VmP123

RIFFI1:
 |--------------------------------|
 |--------------------------------|
 |------2-----2---4---2---2-2---2-|
 |----2---4-------------4-----4---|
 |0-------------------------------|
 |--------------------------------|

RIFFI2:
 |----------------|
 |------3-0---3---|
 |----2-----------|
 |0---------------|
 |----------------|
 |----------------|

RIFFI3:
 |--------------------------------|
 |--------------------------------|
 |------2-----2-----2-------------|
 |----2---4--------2--------------|
 |0---------------0---------------|
 |--------------------------------|


RIFFI1 x2       (INTRO)
RIFFI1, RIFFI2  (VERSE) \ x 11
RIFFI1 x2               /
RIFFI1, RIFFI2  (VERSE)
RIFFI3

Valid XHTML 1.0!Valid CSS!