finger   Tabs By VmP123   finger

<<
Kari Peitsamo - Kultakuoriainen
 Selvitti: VmP123
 
Riffi1:
 |--------------------------------|
 |--------------------------------|
 |--------------------------------|
 |--------1---3-------------------|
 |3---x-3---------3---x-3-----1---|
 |------------------------1-------|

Riffi2:
 |--------------------------------|
 |--------------------------------|
 |--------------------------------|
 |--------------------------------|
 |------------2---------------2---|
 |1---x-1-4-------1---x-1-4-------|

Riffi3:
 |--------------------------------|
 |--------------------------------|
 |--------------------------------|
 |--------------------------------|
 |--------1---3-----------1---3---|
 |3---x-3---------3---x-3---------|

Riffi3b:
 |--------------------------------|
 |--------------------------------|
 |--------------------------------|
 |--------------------------------|
 |--------------------------------|
 |1-------------------------------|


Riffi1 x2                        (INTRO)
Riffi1 x4, Riffi2 x2, Riffi1 x2  (VERSE)
Riffi3, Riffi3b                  (CHORUS)
Riffi1 x2
Riffi1 x4, Riffi2 x2, Riffi1 x2  (VERSE)
Riffi3, Riffi3b                  (CHORUS)
Riffi1 x2
Riffi1 x4, Riffi2 x2, Riffi1 x2  (VERSE)
Riffi3, Riffi3b                  (CHORUS)

Valid XHTML 1.0!Valid CSS!