finger   Tabs By VmP123   finger

<<
Kari Peitsamo - Korkki
 Selvitti: VmP123

Riffi1:
 -------|----------------------------------------------------------------|
 -------|----------------------------------------------------------------|
 -------|----------------------------------------------------------------|
 -------|----------------------3---5-5-3-5---3---3-----------------------|
 -0-3-4-|5---5-3-5-5-5-3-5-5-5-----------------5---5-3-5-----------0-3-4-|
 -------|----------------------------------------------------------------|
                                                                   * * *
Riffi1b:
        |----------------------------------------------------------------|
        |----------------------------------------------------------------|
        |----------------------------------------------------------------|
        |----------------------3---5-5-3-5---3---3-----------------------|
        |5---5-3-5-5-5-3-5-5-5-----------------5---5-5-3-5---------0-3-4-|
        |----------------------------------------------------------------|

                                                                   
Riffi2:
 |----------------------------------------------------------------|
 |----------------------------------------------------------------|
 |----------------------------------------------------------------|
 |7-------7-------7-------7-----------3---5-3---------------------|
 |5-------5-------5-------5-0-3-4-5-----5-----3-5-----------0-3-4-|
 |----------------------------------------------------------------|
                                                            * * *


Riffi1* x2
Riffi1* (VERSE)
Riffi1  (VERSE)
Riffi2* (CHORUS)
Riffi1* (VERSE)
riffi1  (VERSE)
riffi2  (CHORUS)
Riffi1* (VERSE)
Riffi1b
riffi2  (CHORUS)

Valid XHTML 1.0!Valid CSS!