finger   Tabs By VmP123   finger

<<
Kari Peitsamo - Flipperi-Rock
 Selvitti: VmP123
 
RIFF1:
 |--------------------------------|
 |--------------------------------|
 |--------------------------------|
 |2---4---2---4-2-----------------|
 |0-0-0-0-0-0-0-3-------0-3-3-0---|
 |------------------0-3---------3-|
 
RIFF2:
 |--------------------------------|
 |--------------------------------|
 |2---4---2---4-2-----------------|
 |0-0-0-0-0-0-0-3-------0-3-3-0---|
 |------------------0-3---------3-|
 |--------------------------------|

RIFF3:
 |--------------------------------|
 |--------------------------------|
 |--------------------------------|
 |0-0-3-0-0-0-3-0-0-----0-3-3-0---|
 |------------------0-3---------3-|
 |--------------------------------|

RIFF4:
 |--------------------------------|
 |--------------------------------|
 |2-2-4-4-2-2-4-4-2-2-4-4-2-2-4-4-|
 |0-0-3-3-0-0-3-3-0-0-3-3-0-0-3-3-|
 |--------------------------------|
 |--------------------------------|

RIFF4b:
 |----------|
 |----------|
 |2-2-4-4-2-|
 |0-0-3-3-0-|
 |----------|
 |----------|


RIFFI1 x4
RIFFI1    \ x2 (VERSE)
RIFFI2    /
RIFFI3 x2 \    (CHORUS)
RIFFI4 x2 /
RIFFI1    \ x2 (VERSE)
RIFFI2    /
RIFFI3 x2 \    (CHORUS)
RIFFI4 x2 /
RIFFI1    \ x2 (VERSE)
RIFFI2    /
RIFFI3 x2 \    (CHORUS)
RIFFI4    /
RIFFI4b  /

Valid XHTML 1.0!Valid CSS!