finger   Tabs By VmP123   finger

<<
Kari Peitsamo - Fiiliksellä Messiin
 Selvitti: VmP123

G-RIFFI:
 |--------------------------------|
 |--------------------------------|
 |--------------------------------|
 |------------------------5---3---|
 |5-----5-3-3-5-----5---5-3---1---|
 |3-----3-1-1-3-----3---3---------|

G-RIFFI(b):
 |--------------|
 |--------------|
 |--------------|
 |--------------|
 |5-----5-3-3-5-|
 |3-----3-1-1-3-|

C-RIFFI:
 |--------------------------------|
 |--------------------------------|
 |------------------------5---3---|
 |5-----5-3-3-5-----5---5-3---1---|
 |3-----3-1-1-3-----3---3---------|
 |--------------------------------|

D-RIFFI:
 |--------------------------------|
 |--------------------------------|
 |------------------------7---5---|
 |7-----7-5-5-7-----7---7-5---3---|
 |5-----5-3-3-5-----5---5---------|
 |--------------------------------|


G-RIFFI x2
G-RIFFI x4      (VERSE)
C-RIFFI      \
G-RIFFI       \ (CHORUS)
D-RIFFI       /
1/4-TAUKO    /
G-RIFFI x2
G-RIFFI x4      (VERSE)
C-RIFFI      \
G-RIFFI       \ (CHORUS)
D-RIFFI       /
1/4-TAUKO    /
G-RIFFI(b)

Valid XHTML 1.0!Valid CSS!