finger   Tabs By VmP123   finger

<<
Himanes - Kesä, All I Want
 Selvitti: VmP123

RIFFI1:
 |--------------------------------|
 |--------------------------------|
 |--------4h5-----6h7-------------|
 |4h5-----2h3-----4h5-------------|
 |2h3-----------------------------|
 |--------------------------------|

RIFFI1b:
 |--------------------------------|
 |--------------------------------|
 |--------------------------------|
 |--------4h5-----6h7-------------|
 |4h5-----2h3-----4h5-------------|
 |2h3-----------------------------|

RIFFI2:
 |--------|--------|--------|
 |---(2x)-|--------|--------|
 |--------|--------|--------|
 |5-------|7-------|7-x-----|
 |3-------|5-------|5-x-----|
 |--------|--------|--------|

VERSE:
 | G5*| G5*| C5 | C5 |
 | G5*| G5*| D5 | D5 |
 | G5*| G5*| C5 | C5 |
 | D5 | D5 | G5 | G5 |

PRE-CHORUS:
 | C5 | C5 | G5 | G5 | \
 | C5 | C5 | D5 | D5 | / x2

CHORUS:
 | C5 | D5 | G5 | G5 | x2
 | C5 | D5 | G5 | E5 |
 | C5 | D5 | G5 | G5 |


RIFFI1 x3
RIFFI2
VERSE
PRE-CHORUS
RIFFI1b x3
| G5 | x2
CHORUS
PRE-CHORUS
CHORUS x3 (fade out)


G5* = "ylä-G"

Valid XHTML 1.0!Valid CSS!