finger   Tabs By VmP123   finger

<<
Himanes - Kellarista Studioon
 Selvitti: VmP123

RIFFI1:
  A5     (G#5)    F#5             D5              E5
 |----choruksessa-------------------------------------------------|
 |--------------------------------------------------------7---5---|
 |--------------------------------------------6---4---------------|
 |7-7-7-7-6-6-6-6-4-4-4-4-4-4-4-4-7-----7-------------------------|
 |----------------------------------------------------------------|
 |----------------------------------------------------------------|
  . . . . . . . . . . . . . . . .

RIFFI2:
 |--------|--------|
 |--------|--------|
 |--------|--------|
 |--------|--------|
 |7-------|7-----6-|
 |5-------|5-----4-|

VERSE:
 | F#5 | F#5 | A5 | A5 |
 | F#5 | F#5 | D5 | E5 |
 | F#5 | F#5 | A5 | A5 |
 | F#5 | F#5 | H5 | H5 | E5 | E5 |

CHORUS:
 | A5 G#5 | F#5 | D5 | E5 | x2
 RIFFI1 x2

RAKENNE:
 (rummuttelua 8T)
 RIFFI1 x4
 RIFFI2
 VERSE
 CHORUS
 RIFFI2
 VERSE
 CHORUS
 (rummuttelua 8T)
 CHORUS
 LOPETUS: F#5 (ylš) + H--7--


. = demppaus

Valid XHTML 1.0!Valid CSS!