finger   Tabs By VmP123   finger

<<
Himanes - Johnny Hallyday
 Selvitti:VmP123
 
INTRO/CHORUS:
 |--------------------------------|--------------------------------|
 |---------------------------(3x)-|--------------------------------|
 |--------------------------------|--------------------------------|
 |----------7-7-------------------|--------------------------------|
 |9-9-9-9---5-5---7-7-7-7---5-5---|9-9-9-9---7-7-7---5-5-5---------|
 |7-7-7-7---------5-5-5-5---3-3---|7-7-7-7---5-5-5---3-3-3---------|

VERSE:
 |--------------------------------|--------------------------------|
 |---------------------------(3x)-|--------------------------------|
 |--------------------------------|--------------------------------|
 |--------------------------------|----------------------------7-7-|
 |9-------------------------5-5-5-|7---7-7-7-7-7-7-7-7-7-7-7-7-5-5-|
 |7---7-7-7-7-7-7-7-7-7-7-7-3-3-3-|5---5-5-5-5-5-5-5-5-5-5-5-5-----| x2
      . . . . . . . . . . .

PRE-CHORUS:
 |--------------------------------|--------------------------------|
 |--------------------------------|--------------------------------|
 |--------------------------------|--------------------------------|
 |--------------------------------|9-9-9-9-9-9-9-9-9-9-9-9-9-9-9-9-|
 |4/5-5-5-5-5-5-5-4/5-5-5-5-5-5-5-|7-7-7-7-7-7-7-7-7-7-7-7-7-7-7-7-|
 |2/3-3-3-3-3-3-3-2/3-3-3-3-3-3-3-|--------------------------------|

SOOLO:
  G5                              D5
 |----------------------------------------------------------------|
 |----------------------------------------------------------------|
 |0---------------0-----2-----4-----------------------------------|
 |--------------------------------0---------------------0---------|
 |------------------------------------------------3-2-0-----------|
 |----------------------------------------------------------------|

  G5                              A5
 |----------------------------------------------------------------|
 |----------------------------------------------------------------|
 |0---------------0-----2-----4---2-------------------------------|
 |----------------------------------------------------------------|
 |----------------------------------------------------------------|
 |----------------------------------------------------------------|

BRIDGE:
 |----------------------------------------------------------------|
 |7---7---7---7---7---7---7---7---7---7---7---7---7---7---7---7---|
 |4---4---4---4---4---4---4---4---4---4---4---4---4---4---4---4---|
 |----------------------------------------------------------------|
 |-toinen kitara soittaa intro-riffiä-----------------------------|
 |----------------------------------------------------------------| x2


RAKENNE:
 INTRO
 VERSE
 PRE-CHORUS
 CHORUS
 VERSE
 PRE-CHORUS
 CHORUS
 SOOLO
 BRIDGE
 H5+RUMMUT
 CHORUS x2

Valid XHTML 1.0!Valid CSS!