finger   Tabs By VmP123   finger

<<
Aku Ankkuli - Syntynyt Prätkän Selkään
 Selvitti: VmP123
 
Riffi:
  E5      H5      A5          H5
 |--------------------------------|
 |----0---------------------------|
 |--1---1-------------1-----------|
 |2---------1-4-1---2---2-2---4---|
 |--------2-------0-------0---2---|
 |--------------------------------|

Filli: *
 |--------------------------------|
 |--------------------------------|
 |--------------------------------|
 |----6---4---6---7---6---4-------|
 |----------------------------6---|
 |--------------------------------|


VERSE:
 | E5 | E5 | F#5 | F#5 |
 | A5 | H5 | E5* | E5 H5 A5 |
 | E5 | E5 | F#5 | F#5 |
 | A5 | H5 | E5  | E5  |
 
CHORUS:
 | A5 | H5 | E5 | A5 |
 | A5 | H5 |
 


Riffi x4 (INTRO)
VERSE
CHORUS
Riffi x2
VERSE
CHORUS
| E5 | E5?|
CHORUS
Riffi x2
VERSE (SOOLO)
CHORUS
| E5 | E5?|
CHORUS
Riffi x4
| E5 |

Valid XHTML 1.0!Valid CSS!