finger   Tabs By VmP123   finger

<<
Aku Ankkuli - Lennon Elää
 Selvitti: VmP123

INTRO:
 |----------------|
 |-----------(4x)-|
 |----------------|
 |9-9-9-9-9-9-9-9-|
 |7-7-7-7-7-7-7-7-|
 |----------------|
  . . . . . . . .

VERSE:             A               H
 |----------------|--------------------------------|
 |-----------(2x)-|--------------------------------|
 |----------------|--------------------------------|
 |9-9-9-9-9-9-9-9-|--------------------------------|
 |7-7-7-7-7-7-7-7-|7-7-7-7-7-7-7-7-9-9-9-9-9-9-9-9-|
 |----------------|5-5-5-5-5-5-5-5-7-7-7-7-7-7-7-7-| x2
  . . . . . . . .
PRE-CHORUS:        C#m
 |----------------|----------------|----------------|--------------------------------|
 |-----------(2x)-|-----------(2x)-|-----------(2x)-|--------------------------------|
 |----------------|----------------|----------------|--------------------------------|
 |----------------|----------------|----------------|--------------------------------|
 |7-7-7-7-7-7-7-7-|B-B-B-B-B-B-B-B-|9-9-9-9-9-9-9-9-|5-5-5-5-5-5-5-2-2-x-------------|
 |5-5-5-5-5-5-5-5-|9-9-9-9-9-9-9-9-|7-7-7-7-7-7-7-7-|3-3-3-3-2-2-2-0-0-x-------------|
  . . . . . . . .  . . . . . . . .  . . . . . . . .

CHORUS:
 |----------------------------------------------------------------|
 |----------------------------------------------------------------|
 |----------------------------------------------------------------|
 |2-2-2-2-2-2-2-2-4-4-4-4-4-4-4-4-----------------6-6-6-6-6-6-6-6-|
 |0-0-0-0-0-0-0-0-2-2-2-2-2-2-2-2-2-2-2-2-2-2-2-2-4-4-4-4-4-4-4-4-|
 |--------------------------------0-0-0-0-0-0-0-0-----------------|

 |----------------------------------------------------------------|
 |----------------------------------------------------------------|
 |----------------------------------------------------------------|
 |2-2-2-2-2-2-2-2-4-4-4-4-4-4-4-4---------------------------------|
 |0-0-0-0-0-0-0-0-2-2-2-2-2-2-2-2-2-2-2-2-2-2-2-2-2-2-2-2-2-2-2-2-|
 |--------------------------------0-0-0-0-0-0-0-0-0-0-0-0-0-0-0-0-|

 |----------------------------------------------------------------|
 |----------------------------------------------------------------|
 |----------------------------------------------------------------|
 |2-2-2-2-2-2-2-2-4-4-4-4-4-4-4-4-----------------6-6-6-6-6-6-6-6-|
 |0-0-0-0-0-0-0-0-2-2-2-2-2-2-2-2-2-2-2-2-2-2-2-2-4-4-4-4-4-4-4-4-|
 |--------------------------------0-0-0-0-0-0-0-0-----------------|

 |------------------------------------------------|
 |------------------------------------------------|
 |------------------------------------------------|
 |2-2-2-2-2-2-2-2-4-4-4-4-4-4-4-4-----------------|
 |0-0-0-0-0-0-0-0-2-2-2-2-2-2-2-2-5-5-5-5-5-5-5-5-|
 |--------------------------------3-3-3-3-2-2-2-2-|

RAKENNE:
 INTRO
 VERSE
 PRE-CHORUS
 CHORUS
 INTRO
 VERSE
 PRE-CHORUS
 CHORUS
 INTRO (3.:sta kierrosta eteenpäin loppu kappale sa:n korkeammalta)
 VERSE
 PRE-CHORUS
 CHORUS
 F#5

Valid XHTML 1.0!Valid CSS!